All for Joomla All for Webmasters

LYRIC

Download MP3

Tom: C

Riff 1

D		      F	                A# ou (B)         G
E|------------------------------------------------------------------|
B|------------------------------------------------------------------|
G|----2---2---2---------5--5---5------------------------------------|
D|--0---0---0----0-----3--3---3---3-----0-7--0-7--0---0-7- 0-7--0-----|
A|----------------------------------------------------------|
D|0---0---0---0----0/3---3---3--3---3/8----8----8---5---5--5------|

você pode fazer o A# da seguinte forma no dedilhado e na hora das notas cheias tbm, q fica mais
parecido!
E|---|
B|-1-|
G|-x-|
D|-3-|
A|-1-|
D|---|

I can still see the light at the end of the tunnel shine,-----------|
Through the dark times even when I lose my mind.                    |
But it feels like no one in the world is listenin,                  |

and I can't ever seem to make the right decisions.                Intro (1° Riff)
I walk around in the same haze, I'm still caught in my same ways.   |

I'm losing time in these strange days,                              |
but somehow I always know the right things to say.------------------|

Riff 2 (limpo,provável delay e tremolo), ouça a música para pegar o ritmo
uma guitarra continua o Riff 1 e a outra faz o Riff 2

D		    F		     A#                    G
E|-0-x-0-0-x-0-0-x----------------------------------------------------------|
B|-3-x-3-3-x-3-3-x----------------------------------------------------------|
G|-2-x-2-2-x-2-2-x--5-x-5-5-x-5-5-x-----------------------------------------|
D|-0-x-0-0-x-0-0-x--3-x-3-3-x-3-3-x--10-x-10-10-x-10-10-x--7-x-7-7-x-7-7-x--|
A|------------------3-x-3-3-x-3-3-x--8--x-8--8--x-8--8--x--5-x-5-5-x-5-5-x--|
D|------------------3-x-3-3-x-3-3-x--8--x-8--8--x-8--8--x--5-x-5-5-x-5-5-x--|


I don't know what time it is,---------------------|
or who's the one to blame for this.               |
Do i believe what i can't see?                    |

and how do you know which way the wind blows?   2° Riff

Cause i can feel it all around,                   |
I'm lost between the sound.                       |

And just when I think I know, there she goes.-----|
Pré-Refrão
Riff 3 (limpo, sem tremolo e delay)levemente abafado
D	    F	    A#               G

E|-----------------------------------------------------------------|
B|-33333-----------------------------------------------------------|
G|-22222----55555--------------------------------------------------|
D|-00000----33333---10-10-10-10-10---7777777-----------------------|
A|----------33333---8--10-10-10-10---5555555-----------------------|
D|----------33333---8--8--8--8--8----5555555-----------------------|

Pm.....     ....    .  .  .  .  .    .....

D           F    A#                G
Goodbye for now, Goodbye for now (so long)---------------------|


D            F						       Riff 3
Goodbye for now,					       |
(I'm not the type to say i told you so.)-----------------------Z

Refrão
*faça as notas como está nos riffs 1 e 2, ouça a música para pegar o ritmo!
A#                  G
Goodbye for now (so long)
(I think the hardest part of holding on is lettin it go.)
D              F         A#         G
When will we sing a new song? A new song.
*toque do mesmo jeito que o Riff 1

I'm still smiling as the day goes by,------------------------- |
and how come nobody ever knows the reasons why?                |
Bury it deep, so far that you can't see.                       |

If your like me, who wears a broken heart on your sleeve,    Intro (Riff 1)

Pains and struggles that you know so well,                     |
Either time don't, it can't, or it just won't tell.            |
I'm not the type to say i told you so,                         |

I think the hardest part of holding on is lettin it go.--------|

I don't know what time it is,-----------------------|
or who's the one to blame for this.                 |
Do i believe what i can't see?                      |

and how do you know which way the wind blows?     Riff 2

Cause i can feel it all around,                     |
I'm lost between the sound.                         |

And just when I think I know, there she goes.-------|
Pré Refrão
D           F    A#                G
Goodbye for now, Goodbye for now (so long)
Refrão
D            F
Goodbye for now,
(I'm not the type to say i told you so.)
A#                  G
Goodbye for now (so long)
(I think the hardest part of holding on is lettin it go.)
D              F         A#         G
When will we sing a new song? A new song.
D              F         A#         G
When will we sing a new song? A new song.
D
And you can sing until there's no song left (song left)
D#
And I can scream until the world goes deaf (goes deaf)
D
For every other word left unsaid,
C
you should've took the time to read the signs
and see what it meant (what it meant)
D
In some ways everybody feels alone,
D#
so if the burden is mine then i can carry my own (carry my own)
D
If joy really comes in the morning time,
A#
then I'm gonna sit back and wait until the next sunrise.
D           F    A#                G
Goodbye for now, Goodbye for now (so long)
D            F
Goodbye for now,
(I'm not the type to say i told you so.)
A#                  G
Goodbye for now (so long)
(I think the hardest part of holding on is lettin it go.)
D              F         A#         G
When will we sing a new song? A new song.
D              F         A#         G
When will we sing a new song? A new song.
D             F                              A#          G
When will we sing(When will we sing...)a new song? A new song.
(When will.....)
(When will we .....)
(When will we ......)
(When will we ........................)

Download MP3

Added by

Editor

SHARE

ADVERTISEMENT